99 Red Balloons Goldfinger Tab

13 min read Jun 10, 2024
99 Red Balloons Goldfinger Tab

99 Red Balloons: Gitar Tab untuk Goldfinger

"99 Red Balloons," yang terkenal dengan versi Nena, adalah lagu klasik yang penuh makna tentang perang dan kehancuran. Lagu ini juga telah dipopulerkan kembali oleh band punk rock Amerika, Goldfinger, yang memberikannya sentuhan unik dengan gaya mereka yang energik dan catchy.

Jika kamu penggemar Goldfinger dan ingin memainkan lagu ini di gitar, kamu berada di tempat yang tepat! Artikel ini akan membantumu mempelajari tab gitar untuk versi Goldfinger dari "99 Red Balloons."

Gitar Tab untuk 99 Red Balloons (Goldfinger)

Berikut adalah tab gitar untuk "99 Red Balloons" oleh Goldfinger, yang mencakup bagian intro, verse, chorus, dan bridge:

Intro:

E------------------------------------------------------
B------------------------------------------------------
G---7-7-7-7-7-7-7-7-7-7-7-7-7-7-7-7-7-7-7-7--------
D---7-7-7-7-7-7-7-7-7-7-7-7-7-7-7-7-7-7-7-7--------
A---5-5-5-5-5-5-5-5-5-5-5-5-5-5-5-5-5-5-5-5--------
E---0-0-0-0-0-0-0-0-0-0-0-0-0-0-0-0-0-0-0-0--------

Verse:

E------------------------------------------------------
B------------------------------------------------------
G---7-7-7-7-7-7-7-7-7-7-7-7-7-7-7-7-7-7-7-7--------
D---7-7-7-7-7-7-7-7-7-7-7-7-7-7-7-7-7-7-7-7--------
A---5-5-5-5-5-5-5-5-5-5-5-5-5-5-5-5-5-5-5-5--------
E---0-0-0-0-0-0-0-0-0-0-0-0-0-0-0-0-0-0-0-0--------

E------------------------------------------------------
B------------------------------------------------------
G---7-7-7-7-7-7-7-7-7-7-7-7-7-7-7-7-7-7-7-7--------
D---7-7-7-7-7-7-7-7-7-7-7-7-7-7-7-7-7-7-7-7--------
A---5-5-5-5-5-5-5-5-5-5-5-5-5-5-5-5-5-5-5-5--------
E---0-0-0-0-0-0-0-0-0-0-0-0-0-0-0-0-0-0-0-0--------

E------------------------------------------------------
B------------------------------------------------------
G---7-7-7-7-7-7-7-7-7-7-7-7-7-7-7-7-7-7-7-7--------
D---7-7-7-7-7-7-7-7-7-7-7-7-7-7-7-7-7-7-7-7--------
A---5-5-5-5-5-5-5-5-5-5-5-5-5-5-5-5-5-5-5-5--------
E---0-0-0-0-0-0-0-0-0-0-0-0-0-0-0-0-0-0-0-0--------

E------------------------------------------------------
B------------------------------------------------------
G---7-7-7-7-7-7-7-7-7-7-7-7-7-7-7-7-7-7-7-7--------
D---7-7-7-7-7-7-7-7-7-7-7-7-7-7-7-7-7-7-7-7--------
A---5-5-5-5-5-5-5-5-5-5-5-5-5-5-5-5-5-5-5-5--------
E---0-0-0-0-0-0-0-0-0-0-0-0-0-0-0-0-0-0-0-0--------

Chorus:

E------------------------------------------------------
B------------------------------------------------------
G---7-7-7-7-7-7-7-7-7-7-7-7-7-7-7-7-7-7-7-7--------
D---7-7-7-7-7-7-7-7-7-7-7-7-7-7-7-7-7-7-7-7--------
A---5-5-5-5-5-5-5-5-5-5-5-5-5-5-5-5-5-5-5-5--------
E---0-0-0-0-0-0-0-0-0-0-0-0-0-0-0-0-0-0-0-0--------

E------------------------------------------------------
B------------------------------------------------------
G---7-7-7-7-7-7-7-7-7-7-7-7-7-7-7-7-7-7-7-7--------
D---7-7-7-7-7-7-7-7-7-7-7-7-7-7-7-7-7-7-7-7--------
A---5-5-5-5-5-5-5-5-5-5-5-5-5-5-5-5-5-5-5-5--------
E---0-0-0-0-0-0-0-0-0-0-0-0-0-0-0-0-0-0-0-0--------

E------------------------------------------------------
B------------------------------------------------------
G---7-7-7-7-7-7-7-7-7-7-7-7-7-7-7-7-7-7-7-7--------
D---7-7-7-7-7-7-7-7-7-7-7-7-7-7-7-7-7-7-7-7--------
A---5-5-5-5-5-5-5-5-5-5-5-5-5-5-5-5-5-5-5-5--------
E---0-0-0-0-0-0-0-0-0-0-0-0-0-0-0-0-0-0-0-0--------

E------------------------------------------------------
B------------------------------------------------------
G---7-7-7-7-7-7-7-7-7-7-7-7-7-7-7-7-7-7-7-7--------
D---7-7-7-7-7-7-7-7-7-7-7-7-7-7-7-7-7-7-7-7--------
A---5-5-5-5-5-5-5-5-5-5-5-5-5-5-5-5-5-5-5-5--------
E---0-0-0-0-0-0-0-0-0-0-0-0-0-0-0-0-0-0-0-0--------

Bridge:

E------------------------------------------------------
B------------------------------------------------------
G---7-7-7-7-7-7-7-7-7-7-7-7-7-7-7-7-7-7-7-7--------
D---7-7-7-7-7-7-7-7-7-7-7-7-7-7-7-7-7-7-7-7--------
A---5-5-5-5-5-5-5-5-5-5-5-5-5-5-5-5-5-5-5-5--------
E---0-0-0-0-0-0-0-0-0-0-0-0-0-0-0-0-0-0-0-0--------

E------------------------------------------------------
B------------------------------------------------------
G---7-7-7-7-7-7-7-7-7-7-7-7-7-7-7-7-7-7-7-7--------
D---7-7-7-7-7-7-7-7-7-7-7-7-7-7-7-7-7-7-7-7--------
A---5-5-5-5-5-5-5-5-5-5-5-5-5-5-5-5-5-5-5-5--------
E---0-0-0-0-0-0-0-0-0-0-0-0-0-0-0-0-0-0-0-0--------

Outro:

E------------------------------------------------------
B------------------------------------------------------
G---7-7-7-7-7-7-7-7-7-7-7-7-7-7-7-7-7-7-7-7--------
D---7-7-7-7-7-7-7-7-7-7-7-7-7-7-7-7-7-7-7-7--------
A---5-5-5-5-5-5-5-5-5-5-5-5-5-5-5-5-5-5-5-5--------
E---0-0-0-0-0-0-0-0-0-0-0-0-0-0-0-0-0-0-0-0--------

Tips untuk Berlatih

  • Mulailah dengan lambat: Jangan langsung mencoba memainkan lagu dengan kecepatan penuh. Mulailah dengan tempo yang lambat dan fokus pada akurasi.
  • Bagi lagu menjadi bagian-bagian: Pecah lagu menjadi bagian-bagian kecil (intro, verse, chorus, bridge, outro) dan berlatih setiap bagian secara terpisah.
  • Gunakan metronom: Gunakan metronom untuk membantu menjaga ritme dan tempo yang konsisten.
  • Berlatih secara rutin: Semakin sering kamu berlatih, semakin cepat kamu akan menguasai lagu ini.
  • Nikmati prosesnya: Jangan lupa untuk bersenang-senang! Bermain gitar seharusnya menjadi hobi yang menyenangkan.

Dengan latihan dan kesabaran, kamu akan bisa memainkan "99 Red Balloons" oleh Goldfinger di gitar dengan lancar dan penuh percaya diri.

Semoga artikel ini bermanfaat!